You don´t know what love is (you just do as you´re told)

15. února 2012 v 21:03 |  Taby
Písnička "You don´t know what love is" od White Stripes se mi poslední dobou hodně líbí,) takže vám sem dám taby, abyste se nenudili když budete mít volnou chvíli, ještě vám sem dám odkaz. http://www.youtube.com/watch?v=8xsF9fHdAfo
e|-------------3-3p2-----0------|
B|-2-2p0-------------0h2---2h0--| repeat this little thing once, then go
G|-------0h1-------------------2| straight into this:
D|------------------------------|
A|-----------0------------------|
E|-----------0------------------|

e|-----0---------------3-3p2-----0---------------------3-3p2----|
B|-0h2---2h0-----------------0h2---2h0-----2-2p0--------------2-|
G|-----------2p0-1----------------------2--------0h1----------2-| let
D|-----------------2------------------------------------------2-| last
A|-------------------0-------------------------------0----------| chord
E|-------------------0-------------------------------0----------| ring

e|----0------|
B|0h2---2h0--| repeat
G|----------2|
D|-----------|
A|-----------|
E|-----------|

Verses: A E D A

"And I hate to sound cold" : E A E

Chord solo: EEE GGG AAA
 

Buď první, kdo ohodnotí tento článek.

Nový komentář

Přihlásit se
  Ještě nemáte vlastní web? Můžete si jej zdarma založit na Blog.cz.
 

Aktuální články

Reklama